ISO-10303-21;
HEADER;
FILE_DESCRIPTION((''),'2;1');
FILE_NAME('3027G','2010-09-17T',('ramkumar'),(''),
'PRO/ENGINEER BY PARAMETRIC TECHNOLOGY CORPORATION, 2009300',
'PRO/ENGINEER BY PARAMETRIC TECHNOLOGY CORPORATION, 2009300','');
FILE_SCHEMA(('CONFIG_CONTROL_DESIGN'));
ENDSEC;
DATA;
#2=DIRECTION('',(0.E0,0.E0,-1.E0));
#3=VECTOR('',#2,4.743E0);
#4=CARTESIAN_POINT('',(3.716506350946E0,-1.25E-1,2.303E0));
#5=LINE('',#4,#3);
#6=CARTESIAN_POINT('',(3.69E0,-1.25E-1,-2.44E0));
#7=DIRECTION('',(0.E0,1.E0,0.E0));
#8=DIRECTION('',(1.E0,0.E0,0.E0));
#9=AXIS2_PLACEMENT_3D('',#6,#7,#8);
#11=DIRECTION('',(-1.E0,0.E0,0.E0));
#12=VECTOR('',#11,7.38E0);
#13=CARTESIAN_POINT('',(3.69E0,-1.25E-1,-2.466506350946E0));
#14=LINE('',#13,#12);
#15=CARTESIAN_POINT('',(-3.69E0,-1.25E-1,-2.44E0));
#16=DIRECTION('',(0.E0,1.E0,0.E0));
#17=DIRECTION('',(0.E0,0.E0,-1.E0));
#18=AXIS2_PLACEMENT_3D('',#15,#16,#17);
#20=DIRECTION('',(0.E0,0.E0,1.E0));
#21=VECTOR('',#20,4.743E0);
#22=CARTESIAN_POINT('',(-3.716506350946E0,-1.25E-1,-2.44E0));
#23=LINE('',#22,#21);
#24=CARTESIAN_POINT('',(-3.553E0,-1.25E-1,2.303E0));
#25=DIRECTION('',(0.E0,1.E0,0.E0));
#26=DIRECTION('',(-1.E0,0.E0,0.E0));
#27=AXIS2_PLACEMENT_3D('',#24,#25,#26);
#29=DIRECTION('',(1.E0,0.E0,0.E0));
#30=VECTOR('',#29,7.106E0);
#31=CARTESIAN_POINT('',(-3.553E0,-1.25E-1,2.466506350946E0));
#32=LINE('',#31,#30);
#33=CARTESIAN_POINT('',(3.553E0,-1.25E-1,2.303E0));
#34=DIRECTION('',(0.E0,1.E0,0.E0));
#35=DIRECTION('',(0.E0,0.E0,1.E0));
#36=AXIS2_PLACEMENT_3D('',#33,#34,#35);
#38=CARTESIAN_POINT('',(-3.25E0,-1.25E-1,-1.E0));
#39=DIRECTION('',(0.E0,1.E0,0.E0));
#40=DIRECTION('',(1.E0,0.E0,0.E0));
#41=AXIS2_PLACEMENT_3D('',#38,#39,#40);
#43=CARTESIAN_POINT('',(-3.25E0,-1.25E-1,-1.E0));
#44=DIRECTION('',(0.E0,1.E0,0.E0));
#45=DIRECTION('',(-1.E0,0.E0,0.E0));
#46=AXIS2_PLACEMENT_3D('',#43,#44,#45);
#48=CARTESIAN_POINT('',(3.25E0,-1.25E-1,-1.E0));
#49=DIRECTION('',(0.E0,1.E0,0.E0));
#50=DIRECTION('',(1.E0,0.E0,0.E0));
#51=AXIS2_PLACEMENT_3D('',#48,#49,#50);
#53=CARTESIAN_POINT('',(3.25E0,-1.25E-1,-1.E0));
#54=DIRECTION('',(0.E0,1.E0,0.E0));
#55=DIRECTION('',(-1.E0,0.E0,0.E0));
#56=AXIS2_PLACEMENT_3D('',#53,#54,#55);
#58=CARTESIAN_POINT('',(3.5E0,0.E0,2.303E0));
#59=DIRECTION('',(0.E0,0.E0,1.E0));
#60=DIRECTION('',(8.660254037844E-1,-5.E-1,0.E0));
#61=AXIS2_PLACEMENT_3D('',#58,#59,#60);
#63=CARTESIAN_POINT('',(3.553E0,0.E0,2.25E0));
#64=DIRECTION('',(-1.E0,0.E0,0.E0));
#65=DIRECTION('',(0.E0,-5.E-1,8.660254037844E-1));
#66=AXIS2_PLACEMENT_3D('',#63,#64,#65);
#68=CARTESIAN_POINT('',(-3.553E0,0.E0,2.25E0));
#69=DIRECTION('',(-1.E0,0.E0,0.E0));
#70=DIRECTION('',(0.E0,-5.E-1,8.660254037844E-1));
#71=AXIS2_PLACEMENT_3D('',#68,#69,#70);
#73=CARTESIAN_POINT('',(-3.5E0,0.E0,2.303E0));
#74=DIRECTION('',(0.E0,0.E0,-1.E0));
#75=DIRECTION('',(-8.660254037844E-1,-5.E-1,0.E0));
#76=AXIS2_PLACEMENT_3D('',#73,#74,#75);
#78=CARTESIAN_POINT('',(-3.5E0,0.E0,-2.44E0));
#79=DIRECTION('',(0.E0,0.E0,-1.E0));
#80=DIRECTION('',(-8.660254037844E-1,-5.E-1,0.E0));
#81=AXIS2_PLACEMENT_3D('',#78,#79,#80);
#83=CARTESIAN_POINT('',(-3.69E0,0.E0,-2.25E0));
#84=DIRECTION('',(1.E0,0.E0,0.E0));
#85=DIRECTION('',(0.E0,-5.E-1,-8.660254037844E-1));
#86=AXIS2_PLACEMENT_3D('',#83,#84,#85);
#88=CARTESIAN_POINT('',(3.69E0,0.E0,-2.25E0));
#89=DIRECTION('',(1.E0,0.E0,0.E0));
#90=DIRECTION('',(0.E0,-5.E-1,-8.660254037844E-1));
#91=AXIS2_PLACEMENT_3D('',#88,#89,#90);
#93=CARTESIAN_POINT('',(3.5E0,0.E0,-2.44E0));
#94=DIRECTION('',(0.E0,0.E0,1.E0));
#95=DIRECTION('',(8.660254037844E-1,-5.E-1,0.E0));
#96=AXIS2_PLACEMENT_3D('',#93,#94,#95);
#98=DIRECTION('',(0.E0,0.E0,-1.E0));
#99=VECTOR('',#98,4.743E0);
#100=CARTESIAN_POINT('',(3.716506350946E0,1.25E-1,2.303E0));
#101=LINE('',#100,#99);
#102=CARTESIAN_POINT('',(3.553E0,1.25E-1,2.303E0));
#103=DIRECTION('',(0.E0,1.E0,0.E0));
#104=DIRECTION('',(0.E0,0.E0,1.E0));
#105=AXIS2_PLACEMENT_3D('',#102,#103,#104);
#107=DIRECTION('',(1.E0,0.E0,0.E0));
#108=VECTOR('',#107,7.106E0);
#109=CARTESIAN_POINT('',(-3.553E0,1.25E-1,2.466506350946E0));
#110=LINE('',#109,#108);
#111=CARTESIAN_POINT('',(-3.553E0,1.25E-1,2.303E0));
#112=DIRECTION('',(0.E0,1.E0,0.E0));
#113=DIRECTION('',(-1.E0,0.E0,0.E0));
#114=AXIS2_PLACEMENT_3D('',#111,#112,#113);
#116=DIRECTION('',(0.E0,0.E0,1.E0));
#117=VECTOR('',#116,4.743E0);
#118=CARTESIAN_POINT('',(-3.716506350946E0,1.25E-1,-2.44E0));
#119=LINE('',#118,#117);
#120=CARTESIAN_POINT('',(-3.69E0,1.25E-1,-2.44E0));
#121=DIRECTION('',(0.E0,1.E0,0.E0));
#122=DIRECTION('',(0.E0,0.E0,-1.E0));
#123=AXIS2_PLACEMENT_3D('',#120,#121,#122);
#125=DIRECTION('',(-1.E0,0.E0,0.E0));
#126=VECTOR('',#125,7.38E0);
#127=CARTESIAN_POINT('',(3.69E0,1.25E-1,-2.466506350946E0));
#128=LINE('',#127,#126);
#129=CARTESIAN_POINT('',(3.69E0,1.25E-1,-2.44E0));
#130=DIRECTION('',(0.E0,1.E0,0.E0));
#131=DIRECTION('',(1.E0,0.E0,0.E0));
#132=AXIS2_PLACEMENT_3D('',#129,#130,#131);
#134=CARTESIAN_POINT('',(-3.25E0,1.25E-1,-1.E0));
#135=DIRECTION('',(0.E0,1.E0,0.E0));
#136=DIRECTION('',(1.E0,0.E0,0.E0));
#137=AXIS2_PLACEMENT_3D('',#134,#135,#136);
#139=CARTESIAN_POINT('',(-3.25E0,1.25E-1,-1.E0));
#140=DIRECTION('',(0.E0,1.E0,0.E0));
#141=DIRECTION('',(-1.E0,0.E0,0.E0));
#142=AXIS2_PLACEMENT_3D('',#139,#140,#141);
#144=CARTESIAN_POINT('',(3.25E0,1.25E-1,-1.E0));
#145=DIRECTION('',(0.E0,1.E0,0.E0));
#146=DIRECTION('',(1.E0,0.E0,0.E0));
#147=AXIS2_PLACEMENT_3D('',#144,#145,#146);
#149=CARTESIAN_POINT('',(3.25E0,1.25E-1,-1.E0));
#150=DIRECTION('',(0.E0,1.E0,0.E0));
#151=DIRECTION('',(-1.E0,0.E0,0.E0));
#152=AXIS2_PLACEMENT_3D('',#149,#150,#151);
#154=DIRECTION('',(0.E0,-1.E0,0.E0));
#155=VECTOR('',#154,2.5E-1);
#156=CARTESIAN_POINT('',(-3.094E0,1.25E-1,-1.E0));
#157=LINE('',#156,#155);
#158=DIRECTION('',(0.E0,-1.E0,0.E0));
#159=VECTOR('',#158,2.5E-1);
#160=CARTESIAN_POINT('',(-3.406E0,1.25E-1,-1.E0));
#161=LINE('',#160,#159);
#162=DIRECTION('',(0.E0,-1.E0,0.E0));
#163=VECTOR('',#162,2.5E-1);
#164=CARTESIAN_POINT('',(3.406E0,1.25E-1,-1.E0));
#165=LINE('',#164,#163);
#166=DIRECTION('',(0.E0,-1.E0,0.E0));
#167=VECTOR('',#166,2.5E-1);
#168=CARTESIAN_POINT('',(3.094E0,1.25E-1,-1.E0));
#169=LINE('',#168,#167);
#170=CARTESIAN_POINT('',(3.716506350946E0,-1.25E-1,2.303E0));
#171=CARTESIAN_POINT('',(3.716506350946E0,1.25E-1,2.303E0));
#172=VERTEX_POINT('',#170);
#173=VERTEX_POINT('',#171);
#174=CARTESIAN_POINT('',(3.716506350946E0,-1.25E-1,-2.44E0));
#175=VERTEX_POINT('',#174);
#176=CARTESIAN_POINT('',(3.69E0,-1.25E-1,-2.466506350946E0));
#177=VERTEX_POINT('',#176);
#178=CARTESIAN_POINT('',(-3.69E0,-1.25E-1,-2.466506350946E0));
#179=VERTEX_POINT('',#178);
#180=CARTESIAN_POINT('',(-3.716506350946E0,-1.25E-1,-2.44E0));
#181=VERTEX_POINT('',#180);
#182=CARTESIAN_POINT('',(-3.716506350946E0,-1.25E-1,2.303E0));
#183=VERTEX_POINT('',#182);
#184=CARTESIAN_POINT('',(-3.553E0,-1.25E-1,2.466506350946E0));
#185=VERTEX_POINT('',#184);
#186=CARTESIAN_POINT('',(3.553E0,-1.25E-1,2.466506350946E0));
#187=VERTEX_POINT('',#186);
#188=CARTESIAN_POINT('',(3.716506350946E0,1.25E-1,-2.44E0));
#189=VERTEX_POINT('',#188);
#190=CARTESIAN_POINT('',(3.69E0,1.25E-1,-2.466506350946E0));
#191=VERTEX_POINT('',#190);
#192=CARTESIAN_POINT('',(-3.69E0,1.25E-1,-2.466506350946E0));
#193=VERTEX_POINT('',#192);
#194=CARTESIAN_POINT('',(-3.716506350946E0,1.25E-1,-2.44E0));
#195=VERTEX_POINT('',#194);
#196=CARTESIAN_POINT('',(-3.716506350946E0,1.25E-1,2.303E0));
#197=VERTEX_POINT('',#196);
#198=CARTESIAN_POINT('',(-3.553E0,1.25E-1,2.466506350946E0));
#199=VERTEX_POINT('',#198);
#200=CARTESIAN_POINT('',(3.553E0,1.25E-1,2.466506350946E0));
#201=VERTEX_POINT('',#200);
#202=CARTESIAN_POINT('',(-3.094E0,-1.25E-1,-1.E0));
#203=CARTESIAN_POINT('',(-3.406E0,-1.25E-1,-1.E0));
#204=VERTEX_POINT('',#202);
#205=VERTEX_POINT('',#203);
#206=CARTESIAN_POINT('',(3.406E0,-1.25E-1,-1.E0));
#207=CARTESIAN_POINT('',(3.094E0,-1.25E-1,-1.E0));
#208=VERTEX_POINT('',#206);
#209=VERTEX_POINT('',#207);
#210=CARTESIAN_POINT('',(-3.094E0,1.25E-1,-1.E0));
#211=CARTESIAN_POINT('',(-3.406E0,1.25E-1,-1.E0));
#212=VERTEX_POINT('',#210);
#213=VERTEX_POINT('',#211);
#214=CARTESIAN_POINT('',(3.406E0,1.25E-1,-1.E0));
#215=CARTESIAN_POINT('',(3.094E0,1.25E-1,-1.E0));
#216=VERTEX_POINT('',#214);
#217=VERTEX_POINT('',#215);
#218=CARTESIAN_POINT('',(0.E0,-1.25E-1,0.E0));
#219=DIRECTION('',(0.E0,1.E0,0.E0));
#220=DIRECTION('',(1.E0,0.E0,0.E0));
#221=AXIS2_PLACEMENT_3D('',#218,#219,#220);
#222=PLANE('',#221);
#224=ORIENTED_EDGE('',*,*,#223,.T.);
#226=ORIENTED_EDGE('',*,*,#225,.T.);
#228=ORIENTED_EDGE('',*,*,#227,.T.);
#230=ORIENTED_EDGE('',*,*,#229,.T.);
#232=ORIENTED_EDGE('',*,*,#231,.T.);
#234=ORIENTED_EDGE('',*,*,#233,.T.);
#236=ORIENTED_EDGE('',*,*,#235,.T.);
#238=ORIENTED_EDGE('',*,*,#237,.T.);
#239=EDGE_LOOP('',(#224,#226,#228,#230,#232,#234,#236,#238));
#240=FACE_OUTER_BOUND('',#239,.F.);
#242=ORIENTED_EDGE('',*,*,#241,.F.);
#244=ORIENTED_EDGE('',*,*,#243,.F.);
#245=EDGE_LOOP('',(#242,#244));
#246=FACE_BOUND('',#245,.F.);
#248=ORIENTED_EDGE('',*,*,#247,.F.);
#250=ORIENTED_EDGE('',*,*,#249,.F.);
#251=EDGE_LOOP('',(#248,#250));
#252=FACE_BOUND('',#251,.F.);
#253=ADVANCED_FACE('',(#240,#246,#252),#222,.F.);
#254=CARTESIAN_POINT('',(3.5E0,0.E0,2.303E0));
#255=DIRECTION('',(0.E0,0.E0,-1.E0));
#256=DIRECTION('',(-1.E0,0.E0,0.E0));
#257=AXIS2_PLACEMENT_3D('',#254,#255,#256);
#258=CYLINDRICAL_SURFACE('',#257,2.5E-1);
#260=ORIENTED_EDGE('',*,*,#259,.T.);
#262=ORIENTED_EDGE('',*,*,#261,.T.);
#264=ORIENTED_EDGE('',*,*,#263,.F.);
#265=ORIENTED_EDGE('',*,*,#223,.F.);
#266=EDGE_LOOP('',(#260,#262,#264,#265));
#267=FACE_OUTER_BOUND('',#266,.F.);
#268=ADVANCED_FACE('',(#267),#258,.T.);
#269=CARTESIAN_POINT('',(3.541562377364E0,-1.351588137994E-1,2.459897936549E0));
#270=CARTESIAN_POINT('',(3.537601382096E0,-5.038512491325E-2,2.514233702295E0));
#271=CARTESIAN_POINT('',(3.537601382096E0,5.038512491325E-2,2.514233702295E0));
#272=CARTESIAN_POINT('',(3.541562377364E0,1.351588137994E-1,2.459897936549E0));
#273=CARTESIAN_POINT('',(3.644451649638E0,-1.351588137994E-1,2.467398409120E0));
#274=CARTESIAN_POINT('',(3.676122527669E0,-5.038512491325E-2,2.524331684621E0));
#275=CARTESIAN_POINT('',(3.676122527669E0,5.038512491325E-2,2.524331684621E0));
#276=CARTESIAN_POINT('',(3.644451649638E0,1.351588137994E-1,2.467398409120E0));
#277=CARTESIAN_POINT('',(3.717398409120E0,-1.351588137994E-1,2.394451649638E0));
#278=CARTESIAN_POINT('',(3.774331684621E0,-5.038512491325E-2,2.426122527669E0));
#279=CARTESIAN_POINT('',(3.774331684621E0,5.038512491325E-2,2.426122527669E0));
#280=CARTESIAN_POINT('',(3.717398409120E0,1.351588137994E-1,2.394451649638E0));
#281=CARTESIAN_POINT('',(3.709897936549E0,-1.351588137994E-1,2.291562377364E0));
#282=CARTESIAN_POINT('',(3.764233702295E0,-5.038512491325E-2,2.287601382096E0));
#283=CARTESIAN_POINT('',(3.764233702295E0,5.038512491325E-2,2.287601382096E0));
#284=CARTESIAN_POINT('',(3.709897936549E0,1.351588137994E-1,2.291562377364E0));
#285=(BOUNDED_SURFACE()B_SPLINE_SURFACE(3,3,((#269,#270,#271,#272),(#273,#274,
#275,#276),(#277,#278,#279,#280),(#281,#282,#283,#284)),.UNSPECIFIED.,.F.,.F.,
.F.)B_SPLINE_SURFACE_WITH_KNOTS((4,4),(4,4),(0.E0,1.E0),(0.E0,1.E0),
.UNSPECIFIED.)GEOMETRIC_REPRESENTATION_ITEM()RATIONAL_B_SPLINE_SURFACE(((
1.313578577094E0,1.174564401816E0,1.174564401816E0,1.313578577094E0),(
1.010426352399E0,9.034943511404E-1,9.034943511404E-1,1.010426352399E0),(
1.010426352399E0,9.034943511404E-1,9.034943511404E-1,1.010426352399E0),(
1.313578577094E0,1.174564401816E0,1.174564401816E0,1.313578577094E0)))REPRESENTATION_ITEM('')SURFACE());
#286=ORIENTED_EDGE('',*,*,#259,.F.);
#287=ORIENTED_EDGE('',*,*,#237,.F.);
#289=ORIENTED_EDGE('',*,*,#288,.T.);
#291=ORIENTED_EDGE('',*,*,#290,.T.);
#292=EDGE_LOOP('',(#286,#287,#289,#291));
#293=FACE_OUTER_BOUND('',#292,.F.);
#294=ADVANCED_FACE('',(#293),#285,.T.);
#295=CARTESIAN_POINT('',(-3.553E0,0.E0,2.25E0));
#296=DIRECTION('',(1.E0,0.E0,0.E0));
#297=DIRECTION('',(0.E0,0.E0,-1.E0));
#298=AXIS2_PLACEMENT_3D('',#295,#296,#297);
#299=CYLINDRICAL_SURFACE('',#298,2.5E-1);
#300=ORIENTED_EDGE('',*,*,#235,.F.);
#302=ORIENTED_EDGE('',*,*,#301,.T.);
#304=ORIENTED_EDGE('',*,*,#303,.T.);
#305=ORIENTED_EDGE('',*,*,#288,.F.);
#306=EDGE_LOOP('',(#300,#302,#304,#305));
#307=FACE_OUTER_BOUND('',#306,.F.);
#308=ADVANCED_FACE('',(#307),#299,.T.);
#309=CARTESIAN_POINT('',(-3.709897936549E0,-1.351588137994E-1,
2.291562377364E0));
#310=CARTESIAN_POINT('',(-3.764233702295E0,-5.038512491325E-2,
2.287601382096E0));
#311=CARTESIAN_POINT('',(-3.764233702295E0,5.038512491325E-2,2.287601382096E0));
#312=CARTESIAN_POINT('',(-3.709897936549E0,1.351588137994E-1,2.291562377364E0));
#313=CARTESIAN_POINT('',(-3.717398409120E0,-1.351588137994E-1,
2.394451649638E0));
#314=CARTESIAN_POINT('',(-3.774331684621E0,-5.038512491325E-2,
2.426122527669E0));
#315=CARTESIAN_POINT('',(-3.774331684621E0,5.038512491325E-2,2.426122527669E0));
#316=CARTESIAN_POINT('',(-3.717398409120E0,1.351588137994E-1,2.394451649638E0));
#317=CARTESIAN_POINT('',(-3.644451649638E0,-1.351588137994E-1,
2.467398409120E0));
#318=CARTESIAN_POINT('',(-3.676122527669E0,-5.038512491325E-2,
2.524331684621E0));
#319=CARTESIAN_POINT('',(-3.676122527669E0,5.038512491325E-2,2.524331684621E0));
#320=CARTESIAN_POINT('',(-3.644451649638E0,1.351588137994E-1,2.467398409120E0));
#321=CARTESIAN_POINT('',(-3.541562377364E0,-1.351588137994E-1,
2.459897936549E0));
#322=CARTESIAN_POINT('',(-3.537601382096E0,-5.038512491325E-2,
2.514233702295E0));
#323=CARTESIAN_POINT('',(-3.537601382096E0,5.038512491325E-2,2.514233702295E0));
#324=CARTESIAN_POINT('',(-3.541562377364E0,1.351588137994E-1,2.459897936549E0));
#325=(BOUNDED_SURFACE()B_SPLINE_SURFACE(3,3,((#309,#310,#311,#312),(#313,#314,
#315,#316),(#317,#318,#319,#320),(#321,#322,#323,#324)),.UNSPECIFIED.,.F.,.F.,
.F.)B_SPLINE_SURFACE_WITH_KNOTS((4,4),(4,4),(0.E0,1.E0),(0.E0,1.E0),
.UNSPECIFIED.)GEOMETRIC_REPRESENTATION_ITEM()RATIONAL_B_SPLINE_SURFACE(((
1.313578577094E0,1.174564401816E0,1.174564401816E0,1.313578577094E0),(
1.010426352399E0,9.034943511404E-1,9.034943511404E-1,1.010426352399E0),(
1.010426352399E0,9.034943511404E-1,9.034943511404E-1,1.010426352399E0),(
1.313578577094E0,1.174564401816E0,1.174564401816E0,1.313578577094E0)))REPRESENTATION_ITEM('')SURFACE());
#326=ORIENTED_EDGE('',*,*,#233,.F.);
#328=ORIENTED_EDGE('',*,*,#327,.T.);
#330=ORIENTED_EDGE('',*,*,#329,.T.);
#331=ORIENTED_EDGE('',*,*,#301,.F.);
#332=EDGE_LOOP('',(#326,#328,#330,#331));
#333=FACE_OUTER_BOUND('',#332,.F.);
#334=ADVANCED_FACE('',(#333),#325,.T.);
#335=CARTESIAN_POINT('',(-3.5E0,0.E0,-2.44E0));
#336=DIRECTION('',(0.E0,0.E0,1.E0));
#337=DIRECTION('',(1.E0,0.E0,0.E0));
#338=AXIS2_PLACEMENT_3D('',#335,#336,#337);
#339=CYLINDRICAL_SURFACE('',#338,2.5E-1);
#340=ORIENTED_EDGE('',*,*,#231,.F.);
#342=ORIENTED_EDGE('',*,*,#341,.T.);
#344=ORIENTED_EDGE('',*,*,#343,.T.);
#345=ORIENTED_EDGE('',*,*,#327,.F.);
#346=EDGE_LOOP('',(#340,#342,#344,#345));
#347=FACE_OUTER_BOUND('',#346,.F.);
#348=ADVANCED_FACE('',(#347),#339,.T.);
#349=CARTESIAN_POINT('',(-3.681184379753E0,-1.351588137994E-1,
-2.458301767240E0));
#350=CARTESIAN_POINT('',(-3.657542162450E0,-5.038512491325E-2,
-2.507384457506E0));
#351=CARTESIAN_POINT('',(-3.657542162450E0,5.038512491325E-2,
-2.507384457506E0));
#352=CARTESIAN_POINT('',(-3.681184379753E0,1.351588137994E-1,
-2.458301767240E0));
#353=CARTESIAN_POINT('',(-3.701992996242E0,-1.351588137994E-1,
-2.468324890059E0));
#354=CARTESIAN_POINT('',(-3.734156475988E0,-5.038512491325E-2,
-2.544288144719E0));
#355=CARTESIAN_POINT('',(-3.734156475988E0,5.038512491325E-2,
-2.544288144719E0));
#356=CARTESIAN_POINT('',(-3.701992996242E0,1.351588137994E-1,
-2.468324890059E0));
#357=CARTESIAN_POINT('',(-3.718324890059E0,-1.351588137994E-1,
-2.451992996242E0));
#358=CARTESIAN_POINT('',(-3.794288144719E0,-5.038512491325E-2,
-2.484156475988E0));
#359=CARTESIAN_POINT('',(-3.794288144719E0,5.038512491325E-2,
-2.484156475988E0));
#360=CARTESIAN_POINT('',(-3.718324890059E0,1.351588137994E-1,
-2.451992996242E0));
#361=CARTESIAN_POINT('',(-3.708301767240E0,-1.351588137994E-1,
-2.431184379753E0));
#362=CARTESIAN_POINT('',(-3.757384457506E0,-5.038512491325E-2,
-2.407542162450E0));
#363=CARTESIAN_POINT('',(-3.757384457506E0,5.038512491325E-2,
-2.407542162450E0));
#364=CARTESIAN_POINT('',(-3.708301767240E0,1.351588137994E-1,
-2.431184379753E0));
#365=(BOUNDED_SURFACE()B_SPLINE_SURFACE(3,3,((#349,#350,#351,#352),(#353,#354,
#355,#356),(#357,#358,#359,#360),(#361,#362,#363,#364)),.UNSPECIFIED.,.F.,.F.,
.F.)B_SPLINE_SURFACE_WITH_KNOTS((4,4),(4,4),(0.E0,1.E0),(0.E0,1.E0),
.UNSPECIFIED.)GEOMETRIC_REPRESENTATION_ITEM()RATIONAL_B_SPLINE_SURFACE(((
1.633162883282E0,1.460327549885E0,1.460327549885E0,1.633162883282E0),(
9.038982503361E-1,8.082399684507E-1,8.082399684507E-1,9.038982503361E-1),(
9.038982503361E-1,8.082399684507E-1,8.082399684507E-1,9.038982503361E-1),(
1.633162883282E0,1.460327549885E0,1.460327549885E0,1.633162883282E0)))REPRESENTATION_ITEM('')SURFACE());
#366=ORIENTED_EDGE('',*,*,#229,.F.);
#368=ORIENTED_EDGE('',*,*,#367,.T.);
#370=ORIENTED_EDGE('',*,*,#369,.T.);
#371=ORIENTED_EDGE('',*,*,#341,.F.);
#372=EDGE_LOOP('',(#366,#368,#370,#371));
#373=FACE_OUTER_BOUND('',#372,.F.);
#374=ADVANCED_FACE('',(#373),#365,.T.);
#375=CARTESIAN_POINT('',(3.69E0,0.E0,-2.25E0));
#376=DIRECTION('',(-1.E0,0.E0,0.E0));
#377=DIRECTION('',(0.E0,0.E0,1.E0));
#378=AXIS2_PLACEMENT_3D('',#375,#376,#377);
#379=CYLINDRICAL_SURFACE('',#378,2.5E-1);
#380=ORIENTED_EDGE('',*,*,#227,.F.);
#382=ORIENTED_EDGE('',*,*,#381,.T.);
#384=ORIENTED_EDGE('',*,*,#383,.T.);
#385=ORIENTED_EDGE('',*,*,#367,.F.);
#386=EDGE_LOOP('',(#380,#382,#384,#385));
#387=FACE_OUTER_BOUND('',#386,.F.);
#388=ADVANCED_FACE('',(#387),#379,.T.);
#389=CARTESIAN_POINT('',(3.708301767240E0,-1.351588137994E-1,
-2.431184379753E0));
#390=CARTESIAN_POINT('',(3.757384457506E0,-5.038512491325E-2,
-2.407542162450E0));
#391=CARTESIAN_POINT('',(3.757384457506E0,5.038512491325E-2,-2.407542162450E0));
#392=CARTESIAN_POINT('',(3.708301767240E0,1.351588137994E-1,-2.431184379753E0));
#393=CARTESIAN_POINT('',(3.718324890059E0,-1.351588137994E-1,
-2.451992996242E0));
#394=CARTESIAN_POINT('',(3.794288144719E0,-5.038512491325E-2,
-2.484156475988E0));
#395=CARTESIAN_POINT('',(3.794288144719E0,5.038512491325E-2,-2.484156475988E0));
#396=CARTESIAN_POINT('',(3.718324890059E0,1.351588137994E-1,-2.451992996242E0));
#397=CARTESIAN_POINT('',(3.701992996242E0,-1.351588137994E-1,
-2.468324890059E0));
#398=CARTESIAN_POINT('',(3.734156475988E0,-5.038512491325E-2,
-2.544288144719E0));
#399=CARTESIAN_POINT('',(3.734156475988E0,5.038512491325E-2,-2.544288144719E0));
#400=CARTESIAN_POINT('',(3.701992996242E0,1.351588137994E-1,-2.468324890059E0));
#401=CARTESIAN_POINT('',(3.681184379753E0,-1.351588137994E-1,
-2.458301767240E0));
#402=CARTESIAN_POINT('',(3.657542162450E0,-5.038512491325E-2,
-2.507384457506E0));
#403=CARTESIAN_POINT('',(3.657542162450E0,5.038512491325E-2,-2.507384457506E0));
#404=CARTESIAN_POINT('',(3.681184379753E0,1.351588137994E-1,-2.458301767240E0));
#405=(BOUNDED_SURFACE()B_SPLINE_SURFACE(3,3,((#389,#390,#391,#392),(#393,#394,
#395,#396),(#397,#398,#399,#400),(#401,#402,#403,#404)),.UNSPECIFIED.,.F.,.F.,
.F.)B_SPLINE_SURFACE_WITH_KNOTS((4,4),(4,4),(0.E0,1.E0),(0.E0,1.E0),
.UNSPECIFIED.)GEOMETRIC_REPRESENTATION_ITEM()RATIONAL_B_SPLINE_SURFACE(((
1.633162883282E0,1.460327549885E0,1.460327549885E0,1.633162883282E0),(
9.038982503361E-1,8.082399684507E-1,8.082399684507E-1,9.038982503361E-1),(
9.038982503361E-1,8.082399684507E-1,8.082399684507E-1,9.038982503361E-1),(
1.633162883282E0,1.460327549885E0,1.460327549885E0,1.633162883282E0)))REPRESENTATION_ITEM('')SURFACE());
#406=ORIENTED_EDGE('',*,*,#225,.F.);
#407=ORIENTED_EDGE('',*,*,#263,.T.);
#409=ORIENTED_EDGE('',*,*,#408,.T.);
#410=ORIENTED_EDGE('',*,*,#381,.F.);
#411=EDGE_LOOP('',(#406,#407,#409,#410));
#412=FACE_OUTER_BOUND('',#411,.F.);
#413=ADVANCED_FACE('',(#412),#405,.T.);
#414=CARTESIAN_POINT('',(0.E0,1.25E-1,0.E0));
#415=DIRECTION('',(0.E0,1.E0,0.E0));
#416=DIRECTION('',(1.E0,0.E0,0.E0));
#417=AXIS2_PLACEMENT_3D('',#414,#415,#416);
#418=PLANE('',#417);
#419=ORIENTED_EDGE('',*,*,#261,.F.);
#420=ORIENTED_EDGE('',*,*,#290,.F.);
#421=ORIENTED_EDGE('',*,*,#303,.F.);
#422=ORIENTED_EDGE('',*,*,#329,.F.);
#423=ORIENTED_EDGE('',*,*,#343,.F.);
#424=ORIENTED_EDGE('',*,*,#369,.F.);
#425=ORIENTED_EDGE('',*,*,#383,.F.);
#426=ORIENTED_EDGE('',*,*,#408,.F.);
#427=EDGE_LOOP('',(#419,#420,#421,#422,#423,#424,#425,#426));
#428=FACE_OUTER_BOUND('',#427,.F.);
#430=ORIENTED_EDGE('',*,*,#429,.T.);
#432=ORIENTED_EDGE('',*,*,#431,.T.);
#433=EDGE_LOOP('',(#430,#432));
#434=FACE_BOUND('',#433,.F.);
#436=ORIENTED_EDGE('',*,*,#435,.T.);
#438=ORIENTED_EDGE('',*,*,#437,.T.);
#439=EDGE_LOOP('',(#436,#438));
#440=FACE_BOUND('',#439,.F.);
#441=ADVANCED_FACE('',(#428,#434,#440),#418,.T.);
#442=CARTESIAN_POINT('',(-3.25E0,1.25E-1,-1.E0));
#443=DIRECTION('',(0.E0,1.E0,0.E0));
#444=DIRECTION('',(1.E0,0.E0,0.E0));
#445=AXIS2_PLACEMENT_3D('',#442,#443,#444);
#446=CYLINDRICAL_SURFACE('',#445,1.56E-1);
#447=ORIENTED_EDGE('',*,*,#241,.T.);
#449=ORIENTED_EDGE('',*,*,#448,.F.);
#450=ORIENTED_EDGE('',*,*,#429,.F.);
#452=ORIENTED_EDGE('',*,*,#451,.T.);
#453=EDGE_LOOP('',(#447,#449,#450,#452));
#454=FACE_OUTER_BOUND('',#453,.F.);
#455=ADVANCED_FACE('',(#454),#446,.F.);
#456=CARTESIAN_POINT('',(-3.25E0,1.25E-1,-1.E0));
#457=DIRECTION('',(0.E0,1.E0,0.E0));
#458=DIRECTION('',(1.E0,0.E0,0.E0));
#459=AXIS2_PLACEMENT_3D('',#456,#457,#458);
#460=CYLINDRICAL_SURFACE('',#459,1.56E-1);
#461=ORIENTED_EDGE('',*,*,#243,.T.);
#462=ORIENTED_EDGE('',*,*,#451,.F.);
#463=ORIENTED_EDGE('',*,*,#431,.F.);
#464=ORIENTED_EDGE('',*,*,#448,.T.);
#465=EDGE_LOOP('',(#461,#462,#463,#464));
#466=FACE_OUTER_BOUND('',#465,.F.);
#467=ADVANCED_FACE('',(#466),#460,.F.);
#468=CARTESIAN_POINT('',(3.25E0,1.25E-1,-1.E0));
#469=DIRECTION('',(0.E0,1.E0,0.E0));
#470=DIRECTION('',(1.E0,0.E0,0.E0));
#471=AXIS2_PLACEMENT_3D('',#468,#469,#470);
#472=CYLINDRICAL_SURFACE('',#471,1.56E-1);
#473=ORIENTED_EDGE('',*,*,#247,.T.);
#475=ORIENTED_EDGE('',*,*,#474,.F.);
#476=ORIENTED_EDGE('',*,*,#435,.F.);
#478=ORIENTED_EDGE('',*,*,#477,.T.);
#479=EDGE_LOOP('',(#473,#475,#476,#478));
#480=FACE_OUTER_BOUND('',#479,.F.);
#481=ADVANCED_FACE('',(#480),#472,.F.);
#482=CARTESIAN_POINT('',(3.25E0,1.25E-1,-1.E0));
#483=DIRECTION('',(0.E0,1.E0,0.E0));
#484=DIRECTION('',(1.E0,0.E0,0.E0));
#485=AXIS2_PLACEMENT_3D('',#482,#483,#484);
#486=CYLINDRICAL_SURFACE('',#485,1.56E-1);
#487=ORIENTED_EDGE('',*,*,#249,.T.);
#488=ORIENTED_EDGE('',*,*,#477,.F.);
#489=ORIENTED_EDGE('',*,*,#437,.F.);
#490=ORIENTED_EDGE('',*,*,#474,.T.);
#491=EDGE_LOOP('',(#487,#488,#489,#490));
#492=FACE_OUTER_BOUND('',#491,.F.);
#493=ADVANCED_FACE('',(#492),#486,.F.);
#494=CLOSED_SHELL('',(#253,#268,#294,#308,#334,#348,#374,#388,#413,#441,#455,
#467,#481,#493));
#495=MANIFOLD_SOLID_BREP('',#494);
#496=DIMENSIONAL_EXPONENTS(1.E0,0.E0,0.E0,0.E0,0.E0,0.E0,0.E0);
#497=(LENGTH_UNIT()NAMED_UNIT(*)SI_UNIT(.MILLI.,.METRE.));
#498=LENGTH_MEASURE_WITH_UNIT(LENGTH_MEASURE(2.54E1),#497);
#499=(CONVERSION_BASED_UNIT('INCH',#498)LENGTH_UNIT()NAMED_UNIT(#496));
#500=DIMENSIONAL_EXPONENTS(0.E0,0.E0,0.E0,0.E0,0.E0,0.E0,0.E0);
#501=(NAMED_UNIT(*)PLANE_ANGLE_UNIT()SI_UNIT($,.RADIAN.));
#502=PLANE_ANGLE_MEASURE_WITH_UNIT(PLANE_ANGLE_MEASURE(1.745329251994E-2),#501);
#503=(CONVERSION_BASED_UNIT('DEGREE',#502)NAMED_UNIT(#500)PLANE_ANGLE_UNIT());
#504=(NAMED_UNIT(*)SI_UNIT($,.STERADIAN.)SOLID_ANGLE_UNIT());
#505=UNCERTAINTY_MEASURE_WITH_UNIT(LENGTH_MEASURE(9.914869396886E-4),#499,
'closure',
'Maximum model space distance between geometric entities at asserted connectivities');
#506=(GEOMETRIC_REPRESENTATION_CONTEXT(3)GLOBAL_UNCERTAINTY_ASSIGNED_CONTEXT((
#505))GLOBAL_UNIT_ASSIGNED_CONTEXT((#499,#503,#504))REPRESENTATION_CONTEXT
('ID1','3'));
#508=APPLICATION_CONTEXT(
'CONFIGURATION CONTROLLED 3D DESIGNS OF MECHANICAL PARTS AND ASSEMBLIES');
#509=APPLICATION_PROTOCOL_DEFINITION('international standard',
'config_control_design',1994,#508);
#510=DESIGN_CONTEXT('',#508,'design');
#511=MECHANICAL_CONTEXT('',#508,'mechanical');
#512=PRODUCT('3027G','3027G','NOT SPECIFIED',(#511));
#513=PRODUCT_DEFINITION_FORMATION_WITH_SPECIFIED_SOURCE('','LAST_VERSION',#512,
.MADE.);
#517=PRODUCT_CATEGORY('part','');
#518=PRODUCT_RELATED_PRODUCT_CATEGORY('detail','',(#512));
#519=PRODUCT_CATEGORY_RELATIONSHIP('','',#517,#518);
#520=SECURITY_CLASSIFICATION_LEVEL('unclassified');
#521=SECURITY_CLASSIFICATION('','',#520);
#522=CC_DESIGN_SECURITY_CLASSIFICATION(#521,(#513));
#523=APPROVAL_STATUS('approved');
#524=APPROVAL(#523,'');
#525=CC_DESIGN_APPROVAL(#524,(#521,#513,#514));
#526=CALENDAR_DATE(110,17,9);
#527=COORDINATED_UNIVERSAL_TIME_OFFSET(5,30,.AHEAD.);
#528=LOCAL_TIME(13,55,1.1E1,#527);
#529=DATE_AND_TIME(#526,#528);
#530=APPROVAL_DATE_TIME(#529,#524);
#531=DATE_TIME_ROLE('creation_date');
#532=CC_DESIGN_DATE_AND_TIME_ASSIGNMENT(#529,#531,(#514));
#533=DATE_TIME_ROLE('classification_date');
#534=CC_DESIGN_DATE_AND_TIME_ASSIGNMENT(#529,#533,(#521));
#535=PERSON('UNSPECIFIED','UNSPECIFIED',$,$,$,$);
#536=ORGANIZATION('UNSPECIFIED','UNSPECIFIED','UNSPECIFIED');
#537=PERSON_AND_ORGANIZATION(#535,#536);
#538=APPROVAL_ROLE('approver');
#539=APPROVAL_PERSON_ORGANIZATION(#537,#524,#538);
#540=PERSON_AND_ORGANIZATION_ROLE('creator');
#541=CC_DESIGN_PERSON_AND_ORGANIZATION_ASSIGNMENT(#537,#540,(#513,#514));
#542=PERSON_AND_ORGANIZATION_ROLE('design_supplier');
#543=CC_DESIGN_PERSON_AND_ORGANIZATION_ASSIGNMENT(#537,#542,(#513));
#544=PERSON_AND_ORGANIZATION_ROLE('classification_officer');
#545=CC_DESIGN_PERSON_AND_ORGANIZATION_ASSIGNMENT(#537,#544,(#521));
#546=PERSON_AND_ORGANIZATION_ROLE('design_owner');
#547=CC_DESIGN_PERSON_AND_ORGANIZATION_ASSIGNMENT(#537,#546,(#512));
#10=CIRCLE('',#9,2.650635094611E-2);
#19=CIRCLE('',#18,2.650635094611E-2);
#28=CIRCLE('',#27,1.635063509461E-1);
#37=CIRCLE('',#36,1.635063509461E-1);
#42=CIRCLE('',#41,1.56E-1);
#47=CIRCLE('',#46,1.56E-1);
#52=CIRCLE('',#51,1.56E-1);
#57=CIRCLE('',#56,1.56E-1);
#62=CIRCLE('',#61,2.5E-1);
#67=CIRCLE('',#66,2.5E-1);
#72=CIRCLE('',#71,2.5E-1);
#77=CIRCLE('',#76,2.5E-1);
#82=CIRCLE('',#81,2.5E-1);
#87=CIRCLE('',#86,2.5E-1);
#92=CIRCLE('',#91,2.5E-1);
#97=CIRCLE('',#96,2.5E-1);
#106=CIRCLE('',#105,1.635063509461E-1);
#115=CIRCLE('',#114,1.635063509461E-1);
#124=CIRCLE('',#123,2.650635094611E-2);
#133=CIRCLE('',#132,2.650635094611E-2);
#138=CIRCLE('',#137,1.56E-1);
#143=CIRCLE('',#142,1.56E-1);
#148=CIRCLE('',#147,1.56E-1);
#153=CIRCLE('',#152,1.56E-1);
#223=EDGE_CURVE('',#172,#175,#5,.T.);
#225=EDGE_CURVE('',#175,#177,#10,.T.);
#227=EDGE_CURVE('',#177,#179,#14,.T.);
#229=EDGE_CURVE('',#179,#181,#19,.T.);
#231=EDGE_CURVE('',#181,#183,#23,.T.);
#233=EDGE_CURVE('',#183,#185,#28,.T.);
#235=EDGE_CURVE('',#185,#187,#32,.T.);
#237=EDGE_CURVE('',#187,#172,#37,.T.);
#241=EDGE_CURVE('',#204,#205,#42,.T.);
#243=EDGE_CURVE('',#205,#204,#47,.T.);
#247=EDGE_CURVE('',#208,#209,#52,.T.);
#249=EDGE_CURVE('',#209,#208,#57,.T.);
#259=EDGE_CURVE('',#172,#173,#62,.T.);
#261=EDGE_CURVE('',#173,#189,#101,.T.);
#263=EDGE_CURVE('',#175,#189,#97,.T.);
#288=EDGE_CURVE('',#187,#201,#67,.T.);
#290=EDGE_CURVE('',#201,#173,#106,.T.);
#301=EDGE_CURVE('',#185,#199,#72,.T.);
#303=EDGE_CURVE('',#199,#201,#110,.T.);
#327=EDGE_CURVE('',#183,#197,#77,.T.);
#329=EDGE_CURVE('',#197,#199,#115,.T.);
#341=EDGE_CURVE('',#181,#195,#82,.T.);
#343=EDGE_CURVE('',#195,#197,#119,.T.);
#367=EDGE_CURVE('',#179,#193,#87,.T.);
#369=EDGE_CURVE('',#193,#195,#124,.T.);
#381=EDGE_CURVE('',#177,#191,#92,.T.);
#383=EDGE_CURVE('',#191,#193,#128,.T.);
#408=EDGE_CURVE('',#189,#191,#133,.T.);
#429=EDGE_CURVE('',#212,#213,#138,.T.);
#431=EDGE_CURVE('',#213,#212,#143,.T.);
#435=EDGE_CURVE('',#216,#217,#148,.T.);
#437=EDGE_CURVE('',#217,#216,#153,.T.);
#448=EDGE_CURVE('',#213,#205,#161,.T.);
#451=EDGE_CURVE('',#212,#204,#157,.T.);
#474=EDGE_CURVE('',#217,#209,#169,.T.);
#477=EDGE_CURVE('',#216,#208,#165,.T.);
#507=ADVANCED_BREP_SHAPE_REPRESENTATION('',(#495),#506);
#514=PRODUCT_DEFINITION('design','',#513,#510);
#515=PRODUCT_DEFINITION_SHAPE('','SHAPE FOR 3027G.',#514);
#516=SHAPE_DEFINITION_REPRESENTATION(#515,#507);
ENDSEC;
END-ISO-10303-21;
