ISO-10303-21;
HEADER;
FILE_DESCRIPTION((''),'2;1');
FILE_NAME('564B_ASM','2019-08-09T16:58:26',('jinson.thomas'),(''),
'CREO PARAMETRIC BY PTC INC, 2018400','CREO PARAMETRIC BY PTC INC, 2018400','');
FILE_SCHEMA(('CONFIG_CONTROL_DESIGN'));
ENDSEC;
DATA;
#2=CARTESIAN_POINT('',(0.E0,0.E0,0.E0));
#3=DIRECTION('',(0.E0,-1.E0,0.E0));
#4=DIRECTION('',(0.E0,0.E0,-1.E0));
#5=AXIS2_PLACEMENT_3D('',#2,#3,#4);
#7=CARTESIAN_POINT('',(0.E0,0.E0,0.E0));
#8=DIRECTION('',(0.E0,-1.E0,0.E0));
#9=DIRECTION('',(0.E0,0.E0,1.E0));
#10=AXIS2_PLACEMENT_3D('',#7,#8,#9);
#12=CARTESIAN_POINT('',(0.E0,0.E0,0.E0));
#13=DIRECTION('',(0.E0,-1.E0,0.E0));
#14=DIRECTION('',(0.E0,0.E0,-1.E0));
#15=AXIS2_PLACEMENT_3D('',#12,#13,#14);
#17=DIRECTION('',(0.E0,1.E0,0.E0));
#18=VECTOR('',#17,2.25E-1);
#19=CARTESIAN_POINT('',(0.E0,0.E0,-1.1875E0));
#20=LINE('',#19,#18);
#21=DIRECTION('',(0.E0,1.E0,0.E0));
#22=VECTOR('',#21,2.25E-1);
#23=CARTESIAN_POINT('',(0.E0,0.E0,1.1875E0));
#24=LINE('',#23,#22);
#25=CARTESIAN_POINT('',(0.E0,0.E0,0.E0));
#26=DIRECTION('',(0.E0,1.E0,0.E0));
#27=DIRECTION('',(0.E0,0.E0,-1.E0));
#28=AXIS2_PLACEMENT_3D('',#25,#26,#27);
#30=CARTESIAN_POINT('',(0.E0,2.25E-1,-1.0375E0));
#31=DIRECTION('',(1.E0,0.E0,0.E0));
#32=DIRECTION('',(0.E0,0.E0,-1.E0));
#33=AXIS2_PLACEMENT_3D('',#30,#31,#32);
#35=CARTESIAN_POINT('',(0.E0,2.25E-1,1.0375E0));
#36=DIRECTION('',(-1.E0,0.E0,0.E0));
#37=DIRECTION('',(0.E0,0.E0,1.E0));
#38=AXIS2_PLACEMENT_3D('',#35,#36,#37);
#40=CARTESIAN_POINT('',(0.E0,2.25E-1,0.E0));
#41=DIRECTION('',(0.E0,1.E0,0.E0));
#42=DIRECTION('',(0.E0,0.E0,-1.E0));
#43=AXIS2_PLACEMENT_3D('',#40,#41,#42);
#45=CARTESIAN_POINT('',(0.E0,2.25E-1,0.E0));
#46=DIRECTION('',(0.E0,-1.E0,0.E0));
#47=DIRECTION('',(0.E0,0.E0,-1.E0));
#48=AXIS2_PLACEMENT_3D('',#45,#46,#47);
#50=CARTESIAN_POINT('',(0.E0,6.652575458337E-1,0.E0));
#51=DIRECTION('',(0.E0,1.E0,0.E0));
#52=DIRECTION('',(0.E0,0.E0,1.E0));
#53=AXIS2_PLACEMENT_3D('',#50,#51,#52);
#55=CARTESIAN_POINT('',(0.E0,3.699777767259E-1,0.E0));
#56=DIRECTION('',(0.E0,-1.E0,0.E0));
#57=DIRECTION('',(0.E0,0.E0,-1.E0));
#58=AXIS2_PLACEMENT_3D('',#55,#56,#57);
#60=CARTESIAN_POINT('',(0.E0,6.5E-1,4.976363828637E-1));
#61=DIRECTION('',(1.E0,0.E0,0.E0));
#62=DIRECTION('',(0.E0,1.E0,0.E0));
#63=AXIS2_PLACEMENT_3D('',#60,#61,#62);
#65=CARTESIAN_POINT('',(0.E0,6.7E-1,0.E0));
#66=DIRECTION('',(0.E0,1.E0,0.E0));
#67=DIRECTION('',(0.E0,0.E0,-1.E0));
#68=AXIS2_PLACEMENT_3D('',#65,#66,#67);
#70=CARTESIAN_POINT('',(0.E0,6.7E-1,0.E0));
#71=DIRECTION('',(0.E0,1.E0,0.E0));
#72=DIRECTION('',(0.E0,0.E0,1.E0));
#73=AXIS2_PLACEMENT_3D('',#70,#71,#72);
#75=CARTESIAN_POINT('',(0.E0,6.7E-1,0.E0));
#76=DIRECTION('',(0.E0,1.E0,0.E0));
#77=DIRECTION('',(0.E0,0.E0,-1.E0));
#78=AXIS2_PLACEMENT_3D('',#75,#76,#77);
#80=CARTESIAN_POINT('',(0.E0,6.7E-1,0.E0));
#81=DIRECTION('',(0.E0,1.E0,0.E0));
#82=DIRECTION('',(0.E0,0.E0,1.E0));
#83=AXIS2_PLACEMENT_3D('',#80,#81,#82);
#85=CARTESIAN_POINT('',(0.E0,6.5E-1,-4.976363828637E-1));
#86=DIRECTION('',(-1.E0,0.E0,0.E0));
#87=DIRECTION('',(0.E0,1.E0,0.E0));
#88=AXIS2_PLACEMENT_3D('',#85,#86,#87);
#90=CARTESIAN_POINT('',(0.E0,6.652575458337E-1,0.E0));
#91=DIRECTION('',(0.E0,1.E0,0.E0));
#92=DIRECTION('',(0.E0,0.E0,-1.E0));
#93=AXIS2_PLACEMENT_3D('',#90,#91,#92);
#95=CARTESIAN_POINT('',(0.E0,1.771429618409E0,1.448055033225E0));
#96=DIRECTION('',(1.E0,0.E0,0.E0));
#97=DIRECTION('',(0.E0,-9.665185115059E-1,-2.565968957655E-1));
#98=AXIS2_PLACEMENT_3D('',#95,#96,#97);
#100=CARTESIAN_POINT('',(0.E0,3.699777767259E-1,0.E0));
#101=DIRECTION('',(0.E0,1.E0,0.E0));
#102=DIRECTION('',(0.E0,0.E0,-1.E0));
#103=AXIS2_PLACEMENT_3D('',#100,#101,#102);
#105=CARTESIAN_POINT('',(0.E0,1.771429618409E0,-1.448055033225E0));
#106=DIRECTION('',(-1.E0,0.E0,0.E0));
#107=DIRECTION('',(0.E0,-9.665185115059E-1,2.565968957655E-1));
#108=AXIS2_PLACEMENT_3D('',#105,#106,#107);
#110=DIRECTION('',(0.E0,-1.E0,0.E0));
#111=VECTOR('',#110,2.75E-1);
#112=CARTESIAN_POINT('',(0.E0,6.7E-1,-4.825E-1));
#113=LINE('',#112,#111);
#114=DIRECTION('',(0.E0,-1.E0,0.E0));
#115=VECTOR('',#114,2.75E-1);
#116=CARTESIAN_POINT('',(0.E0,6.7E-1,4.825E-1));
#117=LINE('',#116,#115);
#118=CARTESIAN_POINT('',(0.E0,3.95E-1,0.E0));
#119=DIRECTION('',(0.E0,1.E0,0.E0));
#120=DIRECTION('',(0.E0,0.E0,-1.E0));
#121=AXIS2_PLACEMENT_3D('',#118,#119,#120);
#123=CARTESIAN_POINT('',(0.E0,3.95E-1,0.E0));
#124=DIRECTION('',(0.E0,1.E0,0.E0));
#125=DIRECTION('',(0.E0,0.E0,1.E0));
#126=AXIS2_PLACEMENT_3D('',#123,#124,#125);
#128=CARTESIAN_POINT('',(0.E0,3.95E-1,0.E0));
#129=DIRECTION('',(0.E0,-1.E0,0.E0));
#130=DIRECTION('',(-1.E0,0.E0,0.E0));
#131=AXIS2_PLACEMENT_3D('',#128,#129,#130);
#133=CARTESIAN_POINT('',(0.E0,3.95E-1,0.E0));
#134=DIRECTION('',(0.E0,-1.E0,0.E0));
#135=DIRECTION('',(1.E0,0.E0,0.E0));
#136=AXIS2_PLACEMENT_3D('',#133,#134,#135);
#138=DIRECTION('',(0.E0,-1.E0,0.E0));
#139=VECTOR('',#138,2.2E-1);
#140=CARTESIAN_POINT('',(-3.44E-1,3.95E-1,0.E0));
#141=LINE('',#140,#139);
#142=DIRECTION('',(0.E0,-1.E0,0.E0));
#143=VECTOR('',#142,2.2E-1);
#144=CARTESIAN_POINT('',(3.44E-1,3.95E-1,0.E0));
#145=LINE('',#144,#143);
#146=CARTESIAN_POINT('',(0.E0,1.75E-1,0.E0));
#147=DIRECTION('',(0.E0,1.E0,0.E0));
#148=DIRECTION('',(0.E0,0.E0,-1.E0));
#149=AXIS2_PLACEMENT_3D('',#146,#147,#148);
#151=CARTESIAN_POINT('',(0.E0,1.75E-1,0.E0));
#152=DIRECTION('',(0.E0,-1.E0,0.E0));
#153=DIRECTION('',(0.E0,0.E0,-1.E0));
#154=AXIS2_PLACEMENT_3D('',#151,#152,#153);
#156=CARTESIAN_POINT('',(0.E0,1.75E-1,0.E0));
#157=DIRECTION('',(0.E0,-1.E0,0.E0));
#158=DIRECTION('',(-1.E0,0.E0,0.E0));
#159=AXIS2_PLACEMENT_3D('',#156,#157,#158);
#161=CARTESIAN_POINT('',(0.E0,1.75E-1,0.E0));
#162=DIRECTION('',(0.E0,-1.E0,0.E0));
#163=DIRECTION('',(1.E0,0.E0,0.E0));
#164=AXIS2_PLACEMENT_3D('',#161,#162,#163);
#166=DIRECTION('',(0.E0,1.E0,0.E0));
#167=VECTOR('',#166,1.75E-1);
#168=CARTESIAN_POINT('',(0.E0,0.E0,-1.11E0));
#169=LINE('',#168,#167);
#170=DIRECTION('',(0.E0,1.E0,0.E0));
#171=VECTOR('',#170,1.75E-1);
#172=CARTESIAN_POINT('',(0.E0,0.E0,1.11E0));
#173=LINE('',#172,#171);
#174=CARTESIAN_POINT('',(0.E0,0.E0,-1.11E0));
#175=CARTESIAN_POINT('',(0.E0,1.75E-1,-1.11E0));
#176=VERTEX_POINT('',#174);
#177=VERTEX_POINT('',#175);
#178=CARTESIAN_POINT('',(0.E0,0.E0,1.11E0));
#179=CARTESIAN_POINT('',(0.E0,1.75E-1,1.11E0));
#180=VERTEX_POINT('',#178);
#181=VERTEX_POINT('',#179);
#182=CARTESIAN_POINT('',(-3.44E-1,1.75E-1,0.E0));
#183=CARTESIAN_POINT('',(3.44E-1,1.75E-1,0.E0));
#184=VERTEX_POINT('',#182);
#185=VERTEX_POINT('',#183);
#186=CARTESIAN_POINT('',(0.E0,3.95E-1,-4.825E-1));
#187=CARTESIAN_POINT('',(0.E0,3.95E-1,4.825E-1));
#188=VERTEX_POINT('',#186);
#189=VERTEX_POINT('',#187);
#190=CARTESIAN_POINT('',(-3.44E-1,3.95E-1,0.E0));
#191=CARTESIAN_POINT('',(3.44E-1,3.95E-1,0.E0));
#192=VERTEX_POINT('',#190);
#193=VERTEX_POINT('',#191);
#194=CARTESIAN_POINT('',(0.E0,6.7E-1,-4.825E-1));
#195=VERTEX_POINT('',#194);
#196=CARTESIAN_POINT('',(0.E0,6.7E-1,4.825E-1));
#197=VERTEX_POINT('',#196);
#198=CARTESIAN_POINT('',(0.E0,0.E0,-1.1875E0));
#199=CARTESIAN_POINT('',(0.E0,2.25E-1,-1.1875E0));
#200=VERTEX_POINT('',#198);
#201=VERTEX_POINT('',#199);
#202=CARTESIAN_POINT('',(0.E0,3.699777767259E-1,-1.075989534365E0));
#203=VERTEX_POINT('',#202);
#204=CARTESIAN_POINT('',(0.E0,0.E0,1.1875E0));
#205=CARTESIAN_POINT('',(0.E0,2.25E-1,1.1875E0));
#206=VERTEX_POINT('',#204);
#207=VERTEX_POINT('',#205);
#208=CARTESIAN_POINT('',(0.E0,3.699777767259E-1,1.075989534365E0));
#209=VERTEX_POINT('',#208);
#210=CARTESIAN_POINT('',(0.E0,6.7E-1,-4.976363831547E-1));
#211=CARTESIAN_POINT('',(0.E0,6.7E-1,4.976363831547E-1));
#212=VERTEX_POINT('',#210);
#213=VERTEX_POINT('',#211);
#214=CARTESIAN_POINT('',(0.E0,6.652575458337E-1,-5.105672488491E-1));
#215=CARTESIAN_POINT('',(0.E0,6.652575458337E-1,5.105672488491E-1));
#216=VERTEX_POINT('',#214);
#217=VERTEX_POINT('',#215);
#218=CARTESIAN_POINT('',(0.E0,0.E0,0.E0));
#219=DIRECTION('',(0.E0,-1.E0,0.E0));
#220=DIRECTION('',(0.E0,0.E0,1.E0));
#221=AXIS2_PLACEMENT_3D('',#218,#219,#220);
#222=PLANE('',#221);
#224=ORIENTED_EDGE('',*,*,#223,.F.);
#226=ORIENTED_EDGE('',*,*,#225,.T.);
#227=EDGE_LOOP('',(#224,#226));
#228=FACE_OUTER_BOUND('',#227,.F.);
#230=ORIENTED_EDGE('',*,*,#229,.T.);
#232=ORIENTED_EDGE('',*,*,#231,.T.);
#233=EDGE_LOOP('',(#230,#232));
#234=FACE_BOUND('',#233,.F.);
#235=ADVANCED_FACE('',(#228,#234),#222,.T.);
#236=CARTESIAN_POINT('',(0.E0,7.035E-1,0.E0));
#237=DIRECTION('',(0.E0,-1.E0,0.E0));
#238=DIRECTION('',(0.E0,0.E0,1.E0));
#239=AXIS2_PLACEMENT_3D('',#236,#237,#238);
#240=CYLINDRICAL_SURFACE('',#239,1.1875E0);
#242=ORIENTED_EDGE('',*,*,#241,.F.);
#243=ORIENTED_EDGE('',*,*,#223,.T.);
#245=ORIENTED_EDGE('',*,*,#244,.T.);
#247=ORIENTED_EDGE('',*,*,#246,.F.);
#248=EDGE_LOOP('',(#242,#243,#245,#247));
#249=FACE_OUTER_BOUND('',#248,.F.);
#250=ADVANCED_FACE('',(#249),#240,.T.);
#251=CARTESIAN_POINT('',(0.E0,7.035E-1,0.E0));
#252=DIRECTION('',(0.E0,-1.E0,0.E0));
#253=DIRECTION('',(0.E0,0.E0,1.E0));
#254=AXIS2_PLACEMENT_3D('',#251,#252,#253);
#255=CYLINDRICAL_SURFACE('',#254,1.1875E0);
#256=ORIENTED_EDGE('',*,*,#241,.T.);
#258=ORIENTED_EDGE('',*,*,#257,.T.);
#259=ORIENTED_EDGE('',*,*,#244,.F.);
#260=ORIENTED_EDGE('',*,*,#225,.F.);
#261=EDGE_LOOP('',(#256,#258,#259,#260));
#262=FACE_OUTER_BOUND('',#261,.F.);
#263=ADVANCED_FACE('',(#262),#255,.T.);
#264=CARTESIAN_POINT('',(0.E0,2.25E-1,0.E0));
#265=DIRECTION('',(0.E0,-1.E0,0.E0));
#266=DIRECTION('',(0.E0,0.E0,1.E0));
#267=AXIS2_PLACEMENT_3D('',#264,#265,#266);
#268=TOROIDAL_SURFACE('',#267,1.0375E0,1.5E-1);
#270=ORIENTED_EDGE('',*,*,#269,.T.);
#272=ORIENTED_EDGE('',*,*,#271,.T.);
#274=ORIENTED_EDGE('',*,*,#273,.F.);
#275=ORIENTED_EDGE('',*,*,#257,.F.);
#276=EDGE_LOOP('',(#270,#272,#274,#275));
#277=FACE_OUTER_BOUND('',#276,.F.);
#278=ADVANCED_FACE('',(#277),#268,.T.);
#279=CARTESIAN_POINT('',(0.E0,2.25E-1,0.E0));
#280=DIRECTION('',(0.E0,-1.E0,0.E0));
#281=DIRECTION('',(0.E0,0.E0,1.E0));
#282=AXIS2_PLACEMENT_3D('',#279,#280,#281);
#283=TOROIDAL_SURFACE('',#282,1.0375E0,1.5E-1);
#284=ORIENTED_EDGE('',*,*,#269,.F.);
#285=ORIENTED_EDGE('',*,*,#246,.T.);
#286=ORIENTED_EDGE('',*,*,#273,.T.);
#288=ORIENTED_EDGE('',*,*,#287,.F.);
#289=EDGE_LOOP('',(#284,#285,#286,#288));
#290=FACE_OUTER_BOUND('',#289,.F.);
#291=ADVANCED_FACE('',(#290),#283,.T.);
#292=CARTESIAN_POINT('',(0.E0,3.699777767259E-1,-1.075989534365E0));
#293=CARTESIAN_POINT('',(0.E0,4.254428301025E-1,-8.670704020027E-1));
#294=CARTESIAN_POINT('',(0.E0,5.255031576529E-1,-6.754679310805E-1));
#295=CARTESIAN_POINT('',(0.E0,6.652576235973E-1,-5.105671570933E-1));
#296=CARTESIAN_POINT('',(2.151979068730E0,3.699777767259E-1,-1.075989534365E0));
#297=CARTESIAN_POINT('',(1.734140804005E0,4.254428301025E-1,
-8.670704020027E-1));
#298=CARTESIAN_POINT('',(1.350935862161E0,5.255031576529E-1,
-6.754679310805E-1));
#299=CARTESIAN_POINT('',(1.021134314187E0,6.652576235973E-1,
-5.105671570933E-1));
#300=CARTESIAN_POINT('',(2.151979068730E0,3.699777767259E-1,1.075989534365E0));
#301=CARTESIAN_POINT('',(1.734140804005E0,4.254428301025E-1,8.670704020027E-1));
#302=CARTESIAN_POINT('',(1.350935862161E0,5.255031576529E-1,6.754679310805E-1));
#303=CARTESIAN_POINT('',(1.021134314187E0,6.652576235973E-1,5.105671570933E-1));
#304=CARTESIAN_POINT('',(0.E0,3.699777767259E-1,1.075989534365E0));
#305=CARTESIAN_POINT('',(0.E0,4.254428301025E-1,8.670704020027E-1));
#306=CARTESIAN_POINT('',(0.E0,5.255031576529E-1,6.754679310805E-1));
#307=CARTESIAN_POINT('',(0.E0,6.652576235973E-1,5.105671570933E-1));
#308=(BOUNDED_SURFACE()B_SPLINE_SURFACE(3,3,((#292,#293,#294,#295),(#296,#297,
#298,#299),(#300,#301,#302,#303),(#304,#305,#306,#307)),.UNSPECIFIED.,.F.,.F.,
.F.)B_SPLINE_SURFACE_WITH_KNOTS((4,4),(4,4),(0.E0,1.E0),(0.E0,1.E0),
.UNSPECIFIED.)GEOMETRIC_REPRESENTATION_ITEM()RATIONAL_B_SPLINE_SURFACE(((
2.024794524295E0,1.991735158568E0,1.991735158568E0,2.024794524295E0),(
6.749315080983E-1,6.639117195228E-1,6.639117195228E-1,6.749315080983E-1),(
6.749315080983E-1,6.639117195228E-1,6.639117195228E-1,6.749315080983E-1),(
2.024794524295E0,1.991735158568E0,1.991735158568E0,2.024794524295E0)))REPRESENTATION_ITEM('')SURFACE());
#310=ORIENTED_EDGE('',*,*,#309,.T.);
#312=ORIENTED_EDGE('',*,*,#311,.F.);
#313=ORIENTED_EDGE('',*,*,#287,.T.);
#315=ORIENTED_EDGE('',*,*,#314,.T.);
#316=EDGE_LOOP('',(#310,#312,#313,#315));
#317=FACE_OUTER_BOUND('',#316,.F.);
#318=ADVANCED_FACE('',(#317),#308,.F.);
#319=CARTESIAN_POINT('',(0.E0,6.5E-1,0.E0));
#320=DIRECTION('',(0.E0,-1.E0,0.E0));
#321=DIRECTION('',(-9.670191660825E-3,0.E0,9.999532426035E-1));
#322=AXIS2_PLACEMENT_3D('',#319,#320,#321);
#323=TOROIDAL_SURFACE('',#322,4.976363828637E-1,2.E-2);
#325=ORIENTED_EDGE('',*,*,#324,.T.);
#327=ORIENTED_EDGE('',*,*,#326,.T.);
#328=ORIENTED_EDGE('',*,*,#309,.F.);
#330=ORIENTED_EDGE('',*,*,#329,.F.);
#331=EDGE_LOOP('',(#325,#327,#328,#330));
#332=FACE_OUTER_BOUND('',#331,.F.);
#333=ADVANCED_FACE('',(#332),#323,.T.);
#334=CARTESIAN_POINT('',(0.E0,6.7E-1,0.E0));
#335=DIRECTION('',(0.E0,-1.E0,0.E0));
#336=DIRECTION('',(0.E0,0.E0,1.E0));
#337=AXIS2_PLACEMENT_3D('',#334,#335,#336);
#338=PLANE('',#337);
#340=ORIENTED_EDGE('',*,*,#339,.F.);
#341=ORIENTED_EDGE('',*,*,#324,.F.);
#342=EDGE_LOOP('',(#340,#341));
#343=FACE_OUTER_BOUND('',#342,.F.);
#345=ORIENTED_EDGE('',*,*,#344,.T.);
#347=ORIENTED_EDGE('',*,*,#346,.T.);
#348=EDGE_LOOP('',(#345,#347));
#349=FACE_BOUND('',#348,.F.);
#350=ADVANCED_FACE('',(#343,#349),#338,.F.);
#351=CARTESIAN_POINT('',(0.E0,6.5E-1,0.E0));
#352=DIRECTION('',(0.E0,-1.E0,0.E0));
#353=DIRECTION('',(9.670191660826E-3,0.E0,-9.999532426035E-1));
#354=AXIS2_PLACEMENT_3D('',#351,#352,#353);
#355=TOROIDAL_SURFACE('',#354,4.976363828637E-1,2.E-2);
#356=ORIENTED_EDGE('',*,*,#339,.T.);
#357=ORIENTED_EDGE('',*,*,#329,.T.);
#359=ORIENTED_EDGE('',*,*,#358,.F.);
#360=ORIENTED_EDGE('',*,*,#326,.F.);
#361=EDGE_LOOP('',(#356,#357,#359,#360));
#362=FACE_OUTER_BOUND('',#361,.F.);
#363=ADVANCED_FACE('',(#362),#355,.T.);
#364=CARTESIAN_POINT('',(0.E0,3.699777767259E-1,1.075989534365E0));
#365=CARTESIAN_POINT('',(0.E0,4.254428301025E-1,8.670704020027E-1));
#366=CARTESIAN_POINT('',(0.E0,5.255031576529E-1,6.754679310805E-1));
#367=CARTESIAN_POINT('',(0.E0,6.652576235973E-1,5.105671570933E-1));
#368=CARTESIAN_POINT('',(-2.151979068730E0,3.699777767259E-1,1.075989534365E0));
#369=CARTESIAN_POINT('',(-1.734140804005E0,4.254428301025E-1,
8.670704020027E-1));
#370=CARTESIAN_POINT('',(-1.350935862161E0,5.255031576529E-1,
6.754679310805E-1));
#371=CARTESIAN_POINT('',(-1.021134314187E0,6.652576235973E-1,
5.105671570933E-1));
#372=CARTESIAN_POINT('',(-2.151979068730E0,3.699777767259E-1,
-1.075989534365E0));
#373=CARTESIAN_POINT('',(-1.734140804005E0,4.254428301025E-1,
-8.670704020027E-1));
#374=CARTESIAN_POINT('',(-1.350935862161E0,5.255031576529E-1,
-6.754679310805E-1));
#375=CARTESIAN_POINT('',(-1.021134314187E0,6.652576235973E-1,
-5.105671570933E-1));
#376=CARTESIAN_POINT('',(0.E0,3.699777767259E-1,-1.075989534365E0));
#377=CARTESIAN_POINT('',(0.E0,4.254428301025E-1,-8.670704020027E-1));
#378=CARTESIAN_POINT('',(0.E0,5.255031576529E-1,-6.754679310805E-1));
#379=CARTESIAN_POINT('',(0.E0,6.652576235973E-1,-5.105671570933E-1));
#380=(BOUNDED_SURFACE()B_SPLINE_SURFACE(3,3,((#364,#365,#366,#367),(#368,#369,
#370,#371),(#372,#373,#374,#375),(#376,#377,#378,#379)),.UNSPECIFIED.,.F.,.F.,
.F.)B_SPLINE_SURFACE_WITH_KNOTS((4,4),(4,4),(0.E0,1.E0),(0.E0,1.E0),
.UNSPECIFIED.)GEOMETRIC_REPRESENTATION_ITEM()RATIONAL_B_SPLINE_SURFACE(((
2.024794524295E0,1.991735158568E0,1.991735158568E0,2.024794524295E0),(
6.749315080983E-1,6.639117195228E-1,6.639117195228E-1,6.749315080983E-1),(
6.749315080983E-1,6.639117195228E-1,6.639117195228E-1,6.749315080983E-1),(
2.024794524295E0,1.991735158568E0,1.991735158568E0,2.024794524295E0)))REPRESENTATION_ITEM('')SURFACE());
#381=ORIENTED_EDGE('',*,*,#358,.T.);
#382=ORIENTED_EDGE('',*,*,#314,.F.);
#383=ORIENTED_EDGE('',*,*,#271,.F.);
#384=ORIENTED_EDGE('',*,*,#311,.T.);
#385=EDGE_LOOP('',(#381,#382,#383,#384));
#386=FACE_OUTER_BOUND('',#385,.F.);
#387=ADVANCED_FACE('',(#386),#380,.F.);
#388=CARTESIAN_POINT('',(0.E0,6.7E-1,0.E0));
#389=DIRECTION('',(0.E0,1.E0,0.E0));
#390=DIRECTION('',(0.E0,0.E0,-1.E0));
#391=AXIS2_PLACEMENT_3D('',#388,#389,#390);
#392=CYLINDRICAL_SURFACE('',#391,4.825E-1);
#394=ORIENTED_EDGE('',*,*,#393,.T.);
#396=ORIENTED_EDGE('',*,*,#395,.T.);
#398=ORIENTED_EDGE('',*,*,#397,.F.);
#399=ORIENTED_EDGE('',*,*,#344,.F.);
#400=EDGE_LOOP('',(#394,#396,#398,#399));
#401=FACE_OUTER_BOUND('',#400,.F.);
#402=ADVANCED_FACE('',(#401),#392,.F.);
#403=CARTESIAN_POINT('',(0.E0,6.7E-1,0.E0));
#404=DIRECTION('',(0.E0,1.E0,0.E0));
#405=DIRECTION('',(0.E0,0.E0,-1.E0));
#406=AXIS2_PLACEMENT_3D('',#403,#404,#405);
#407=CYLINDRICAL_SURFACE('',#406,4.825E-1);
#408=ORIENTED_EDGE('',*,*,#393,.F.);
#409=ORIENTED_EDGE('',*,*,#346,.F.);
#410=ORIENTED_EDGE('',*,*,#397,.T.);
#412=ORIENTED_EDGE('',*,*,#411,.T.);
#413=EDGE_LOOP('',(#408,#409,#410,#412));
#414=FACE_OUTER_BOUND('',#413,.F.);
#415=ADVANCED_FACE('',(#414),#407,.F.);
#416=CARTESIAN_POINT('',(0.E0,3.95E-1,0.E0));
#417=DIRECTION('',(0.E0,1.E0,0.E0));
#418=DIRECTION('',(0.E0,0.E0,-1.E0));
#419=AXIS2_PLACEMENT_3D('',#416,#417,#418);
#420=PLANE('',#419);
#421=ORIENTED_EDGE('',*,*,#395,.F.);
#422=ORIENTED_EDGE('',*,*,#411,.F.);
#423=EDGE_LOOP('',(#421,#422));
#424=FACE_OUTER_BOUND('',#423,.F.);
#426=ORIENTED_EDGE('',*,*,#425,.F.);
#428=ORIENTED_EDGE('',*,*,#427,.F.);
#429=EDGE_LOOP('',(#426,#428));
#430=FACE_BOUND('',#429,.F.);
#431=ADVANCED_FACE('',(#424,#430),#420,.T.);
#432=CARTESIAN_POINT('',(0.E0,7.7385E-1,0.E0));
#433=DIRECTION('',(0.E0,-1.E0,0.E0));
#434=DIRECTION('',(-1.E0,0.E0,0.E0));
#435=AXIS2_PLACEMENT_3D('',#432,#433,#434);
#436=CYLINDRICAL_SURFACE('',#435,3.44E-1);
#437=ORIENTED_EDGE('',*,*,#425,.T.);
#439=ORIENTED_EDGE('',*,*,#438,.T.);
#441=ORIENTED_EDGE('',*,*,#440,.F.);
#443=ORIENTED_EDGE('',*,*,#442,.F.);
#444=EDGE_LOOP('',(#437,#439,#441,#443));
#445=FACE_OUTER_BOUND('',#444,.F.);
#446=ADVANCED_FACE('',(#445),#436,.F.);
#447=CARTESIAN_POINT('',(0.E0,7.7385E-1,0.E0));
#448=DIRECTION('',(0.E0,-1.E0,0.E0));
#449=DIRECTION('',(-1.E0,0.E0,0.E0));
#450=AXIS2_PLACEMENT_3D('',#447,#448,#449);
#451=CYLINDRICAL_SURFACE('',#450,3.44E-1);
#452=ORIENTED_EDGE('',*,*,#427,.T.);
#453=ORIENTED_EDGE('',*,*,#442,.T.);
#455=ORIENTED_EDGE('',*,*,#454,.F.);
#456=ORIENTED_EDGE('',*,*,#438,.F.);
#457=EDGE_LOOP('',(#452,#453,#455,#456));
#458=FACE_OUTER_BOUND('',#457,.F.);
#459=ADVANCED_FACE('',(#458),#451,.F.);
#460=CARTESIAN_POINT('',(0.E0,1.75E-1,0.E0));
#461=DIRECTION('',(0.E0,-1.E0,0.E0));
#462=DIRECTION('',(0.E0,0.E0,1.E0));
#463=AXIS2_PLACEMENT_3D('',#460,#461,#462);
#464=PLANE('',#463);
#466=ORIENTED_EDGE('',*,*,#465,.T.);
#468=ORIENTED_EDGE('',*,*,#467,.F.);
#469=EDGE_LOOP('',(#466,#468));
#470=FACE_OUTER_BOUND('',#469,.F.);
#471=ORIENTED_EDGE('',*,*,#440,.T.);
#472=ORIENTED_EDGE('',*,*,#454,.T.);
#473=EDGE_LOOP('',(#471,#472));
#474=FACE_BOUND('',#473,.F.);
#475=ADVANCED_FACE('',(#470,#474),#464,.T.);
#476=CARTESIAN_POINT('',(0.E0,1.8375E-1,0.E0));
#477=DIRECTION('',(0.E0,-1.E0,0.E0));
#478=DIRECTION('',(0.E0,0.E0,1.E0));
#479=AXIS2_PLACEMENT_3D('',#476,#477,#478);
#480=CYLINDRICAL_SURFACE('',#479,1.11E0);
#482=ORIENTED_EDGE('',*,*,#481,.F.);
#483=ORIENTED_EDGE('',*,*,#231,.F.);
#485=ORIENTED_EDGE('',*,*,#484,.T.);
#486=ORIENTED_EDGE('',*,*,#465,.F.);
#487=EDGE_LOOP('',(#482,#483,#485,#486));
#488=FACE_OUTER_BOUND('',#487,.F.);
#489=ADVANCED_FACE('',(#488),#480,.F.);
#490=CARTESIAN_POINT('',(0.E0,1.8375E-1,0.E0));
#491=DIRECTION('',(0.E0,-1.E0,0.E0));
#492=DIRECTION('',(0.E0,0.E0,1.E0));
#493=AXIS2_PLACEMENT_3D('',#490,#491,#492);
#494=CYLINDRICAL_SURFACE('',#493,1.11E0);
#495=ORIENTED_EDGE('',*,*,#481,.T.);
#496=ORIENTED_EDGE('',*,*,#467,.T.);
#497=ORIENTED_EDGE('',*,*,#484,.F.);
#498=ORIENTED_EDGE('',*,*,#229,.F.);
#499=EDGE_LOOP('',(#495,#496,#497,#498));
#500=FACE_OUTER_BOUND('',#499,.F.);
#501=ADVANCED_FACE('',(#500),#494,.F.);
#502=CLOSED_SHELL('',(#235,#250,#263,#278,#291,#318,#333,#350,#363,#387,#402,
#415,#431,#446,#459,#475,#489,#501));
#503=MANIFOLD_SOLID_BREP('',#502);
#504=DIMENSIONAL_EXPONENTS(1.E0,0.E0,0.E0,0.E0,0.E0,0.E0,0.E0);
#506=LENGTH_MEASURE_WITH_UNIT(LENGTH_MEASURE(2.54E1),#505);
#507=(CONVERSION_BASED_UNIT('INCH',#506)LENGTH_UNIT()NAMED_UNIT(#504));
#508=DIMENSIONAL_EXPONENTS(0.E0,0.E0,0.E0,0.E0,0.E0,0.E0,0.E0);
#510=PLANE_ANGLE_MEASURE_WITH_UNIT(PLANE_ANGLE_MEASURE(1.745329251994E-2),#509);
#511=(CONVERSION_BASED_UNIT('DEGREE',#510)NAMED_UNIT(*)PLANE_ANGLE_UNIT());
#513=UNCERTAINTY_MEASURE_WITH_UNIT(LENGTH_MEASURE(3.424793659006E-4),#507,
'closure',
'Maximum model space distance between geometric entities at asserted connectivities');
#514=(GEOMETRIC_REPRESENTATION_CONTEXT(3)GLOBAL_UNCERTAINTY_ASSIGNED_CONTEXT((
#513))GLOBAL_UNIT_ASSIGNED_CONTEXT((#507,#511,#512))REPRESENTATION_CONTEXT
('ID1','3'));
#515=CARTESIAN_POINT('',(0.E0,0.E0,0.E0));
#516=DIRECTION('',(0.E0,0.E0,1.E0));
#517=DIRECTION('',(1.E0,0.E0,0.E0));
#520=APPLICATION_CONTEXT(
'CONFIGURATION CONTROLLED 3D DESIGNS OF MECHANICAL PARTS AND ASSEMBLIES');
#521=APPLICATION_PROTOCOL_DEFINITION('international standard',
'config_control_design',1994,#520);
#522=DESIGN_CONTEXT('',#520,'design');
#523=MECHANICAL_CONTEXT('',#520,'mechanical');
#524=PRODUCT('40731','40731','NOT SPECIFIED',(#523));
#525=PRODUCT_DEFINITION_FORMATION_WITH_SPECIFIED_SOURCE('1','LAST_VERSION',#524,
.MADE.);
#534=CARTESIAN_POINT('',(0.E0,0.E0,0.E0));
#535=DIRECTION('',(1.E0,0.E0,0.E0));
#536=DIRECTION('',(0.E0,1.E0,0.E0));
#537=AXIS2_PLACEMENT_3D('',#534,#535,#536);
#538=ITEM_DEFINED_TRANSFORMATION('','',#518,#537);
#539=(REPRESENTATION_RELATIONSHIP('','',#519,#531)REPRESENTATION_RELATIONSHIP_WITH_TRANSFORMATION(#538)SHAPE_REPRESENTATION_RELATIONSHIP());
#540=CONTEXT_DEPENDENT_SHAPE_REPRESENTATION(#539,#533);
#543=CARTESIAN_POINT('',(4.E0,0.E0,0.E0));
#544=DIRECTION('',(-1.E0,0.E0,0.E0));
#545=DIRECTION('',(0.E0,-1.E0,0.E0));
#546=AXIS2_PLACEMENT_3D('',#543,#544,#545);
#547=ITEM_DEFINED_TRANSFORMATION('','',#518,#546);
#548=(REPRESENTATION_RELATIONSHIP('','',#519,#531)REPRESENTATION_RELATIONSHIP_WITH_TRANSFORMATION(#547)SHAPE_REPRESENTATION_RELATIONSHIP());
#549=CONTEXT_DEPENDENT_SHAPE_REPRESENTATION(#548,#542);
#550=DIMENSIONAL_EXPONENTS(1.E0,0.E0,0.E0,0.E0,0.E0,0.E0,0.E0);
#552=LENGTH_MEASURE_WITH_UNIT(LENGTH_MEASURE(2.54E1),#551);
#553=(CONVERSION_BASED_UNIT('INCH',#552)LENGTH_UNIT()NAMED_UNIT(#550));
#554=DIMENSIONAL_EXPONENTS(0.E0,0.E0,0.E0,0.E0,0.E0,0.E0,0.E0);
#556=PLANE_ANGLE_MEASURE_WITH_UNIT(PLANE_ANGLE_MEASURE(1.745329251994E-2),#555);
#557=(CONVERSION_BASED_UNIT('DEGREE',#556)NAMED_UNIT(*)PLANE_ANGLE_UNIT());
#559=UNCERTAINTY_MEASURE_WITH_UNIT(LENGTH_MEASURE(6.835671997892E-4),#553,
'closure',
'Maximum model space distance between geometric entities at asserted connectivities');
#560=(GEOMETRIC_REPRESENTATION_CONTEXT(3)GLOBAL_UNCERTAINTY_ASSIGNED_CONTEXT((
#559))GLOBAL_UNIT_ASSIGNED_CONTEXT((#553,#557,#558))REPRESENTATION_CONTEXT
('ID2','3'));
#561=CARTESIAN_POINT('',(0.E0,0.E0,0.E0));
#562=DIRECTION('',(0.E0,0.E0,1.E0));
#563=DIRECTION('',(1.E0,0.E0,0.E0));
#565=MECHANICAL_CONTEXT('',#520,'mechanical');
#566=PRODUCT('564B_ASM','564B_ASM','NOT SPECIFIED',(#565));
#567=PRODUCT_DEFINITION_FORMATION_WITH_SPECIFIED_SOURCE('1','LAST_VERSION',#566,
.MADE.);
#569=PRODUCT_CATEGORY('part','');
#570=PRODUCT_RELATED_PRODUCT_CATEGORY('assembly','',(#566));
#571=PRODUCT_CATEGORY_RELATIONSHIP('','',#569,#570);
#572=PRODUCT_CATEGORY('part','');
#573=PRODUCT_RELATED_PRODUCT_CATEGORY('detail','',(#524));
#574=PRODUCT_CATEGORY_RELATIONSHIP('','',#572,#573);
#575=SECURITY_CLASSIFICATION_LEVEL('unclassified');
#576=SECURITY_CLASSIFICATION('','',#575);
#577=CC_DESIGN_SECURITY_CLASSIFICATION(#576,(#525,#567,#532,#541));
#578=APPROVAL_STATUS('approved');
#579=APPROVAL(#578,'');
#580=CC_DESIGN_APPROVAL(#579,(#576,#525,#567,#526,#568));
#581=CALENDAR_DATE(119,9,8);
#582=COORDINATED_UNIVERSAL_TIME_OFFSET(5,30,.AHEAD.);
#583=LOCAL_TIME(16,58,2.6E1,#582);
#584=DATE_AND_TIME(#581,#583);
#585=APPROVAL_DATE_TIME(#584,#579);
#586=DATE_TIME_ROLE('creation_date');
#587=CC_DESIGN_DATE_AND_TIME_ASSIGNMENT(#584,#586,(#526,#568));
#588=DATE_TIME_ROLE('classification_date');
#589=CC_DESIGN_DATE_AND_TIME_ASSIGNMENT(#584,#588,(#576));
#590=PERSON('UNSPECIFIED','UNSPECIFIED',$,$,$,$);
#591=ORGANIZATION('UNSPECIFIED','UNSPECIFIED','UNSPECIFIED');
#592=PERSON_AND_ORGANIZATION(#590,#591);
#593=APPROVAL_ROLE('approver');
#594=APPROVAL_PERSON_ORGANIZATION(#592,#579,#593);
#595=PERSON_AND_ORGANIZATION_ROLE('creator');
#596=CC_DESIGN_PERSON_AND_ORGANIZATION_ASSIGNMENT(#592,#595,(#525,#567,#526,
#568));
#597=PERSON_AND_ORGANIZATION_ROLE('design_supplier');
#598=CC_DESIGN_PERSON_AND_ORGANIZATION_ASSIGNMENT(#592,#597,(#525,#567));
#599=PERSON_AND_ORGANIZATION_ROLE('classification_officer');
#600=CC_DESIGN_PERSON_AND_ORGANIZATION_ASSIGNMENT(#592,#599,(#576));
#601=PERSON_AND_ORGANIZATION_ROLE('design_owner');
#602=CC_DESIGN_PERSON_AND_ORGANIZATION_ASSIGNMENT(#592,#601,(#566,#524));
#6=CIRCLE('',#5,1.11E0);
#11=CIRCLE('',#10,1.11E0);
#16=CIRCLE('',#15,1.1875E0);
#29=CIRCLE('',#28,1.1875E0);
#34=CIRCLE('',#33,1.5E-1);
#39=CIRCLE('',#38,1.5E-1);
#44=CIRCLE('',#43,1.1875E0);
#49=CIRCLE('',#48,1.1875E0);
#54=CIRCLE('',#53,5.105672488491E-1);
#59=CIRCLE('',#58,1.075989534365E0);
#64=CIRCLE('',#63,2.E-2);
#69=CIRCLE('',#68,4.976363831547E-1);
#74=CIRCLE('',#73,4.976363831547E-1);
#79=CIRCLE('',#78,4.825E-1);
#84=CIRCLE('',#83,4.825E-1);
#89=CIRCLE('',#88,2.E-2);
#94=CIRCLE('',#93,5.105672488491E-1);
#99=CIRCLE('',#98,1.45E0);
#104=CIRCLE('',#103,1.075989534365E0);
#109=CIRCLE('',#108,1.45E0);
#122=CIRCLE('',#121,4.825E-1);
#127=CIRCLE('',#126,4.825E-1);
#132=CIRCLE('',#131,3.44E-1);
#137=CIRCLE('',#136,3.44E-1);
#150=CIRCLE('',#149,1.11E0);
#155=CIRCLE('',#154,1.11E0);
#160=CIRCLE('',#159,3.44E-1);
#165=CIRCLE('',#164,3.44E-1);
#223=EDGE_CURVE('',#200,#206,#16,.T.);
#225=EDGE_CURVE('',#200,#206,#29,.T.);
#229=EDGE_CURVE('',#176,#180,#6,.T.);
#231=EDGE_CURVE('',#180,#176,#11,.T.);
#241=EDGE_CURVE('',#200,#201,#20,.T.);
#244=EDGE_CURVE('',#206,#207,#24,.T.);
#246=EDGE_CURVE('',#201,#207,#49,.T.);
#257=EDGE_CURVE('',#201,#207,#44,.T.);
#269=EDGE_CURVE('',#201,#203,#34,.T.);
#271=EDGE_CURVE('',#203,#209,#104,.T.);
#273=EDGE_CURVE('',#207,#209,#39,.T.);
#287=EDGE_CURVE('',#203,#209,#59,.T.);
#309=EDGE_CURVE('',#217,#216,#54,.T.);
#311=EDGE_CURVE('',#203,#216,#109,.T.);
#314=EDGE_CURVE('',#209,#217,#99,.T.);
#324=EDGE_CURVE('',#213,#212,#74,.T.);
#326=EDGE_CURVE('',#212,#216,#89,.T.);
#329=EDGE_CURVE('',#213,#217,#64,.T.);
#339=EDGE_CURVE('',#212,#213,#69,.T.);
#344=EDGE_CURVE('',#195,#197,#79,.T.);
#346=EDGE_CURVE('',#197,#195,#84,.T.);
#358=EDGE_CURVE('',#216,#217,#94,.T.);
#393=EDGE_CURVE('',#195,#188,#113,.T.);
#395=EDGE_CURVE('',#188,#189,#122,.T.);
#397=EDGE_CURVE('',#197,#189,#117,.T.);
#411=EDGE_CURVE('',#189,#188,#127,.T.);
#425=EDGE_CURVE('',#192,#193,#132,.T.);
#427=EDGE_CURVE('',#193,#192,#137,.T.);
#438=EDGE_CURVE('',#193,#185,#145,.T.);
#440=EDGE_CURVE('',#184,#185,#160,.T.);
#442=EDGE_CURVE('',#192,#184,#141,.T.);
#454=EDGE_CURVE('',#185,#184,#165,.T.);
#465=EDGE_CURVE('',#177,#181,#150,.T.);
#467=EDGE_CURVE('',#177,#181,#155,.T.);
#481=EDGE_CURVE('',#176,#177,#169,.T.);
#484=EDGE_CURVE('',#180,#181,#173,.T.);
#505=(LENGTH_UNIT()NAMED_UNIT(*)SI_UNIT(.MILLI.,.METRE.));
#509=(NAMED_UNIT(*)PLANE_ANGLE_UNIT()SI_UNIT($,.RADIAN.));
#512=(NAMED_UNIT(*)SI_UNIT($,.STERADIAN.)SOLID_ANGLE_UNIT());
#518=AXIS2_PLACEMENT_3D('',#515,#516,#517);
#519=ADVANCED_BREP_SHAPE_REPRESENTATION('',(#518,#503),#514);
#526=PRODUCT_DEFINITION('design','',#525,#522);
#527=PRODUCT_DEFINITION_SHAPE('','SHAPE FOR 40731.',#526);
#528=SHAPE_DEFINITION_REPRESENTATION(#527,#519);
#529=SHAPE_DEFINITION_REPRESENTATION(#530,#531);
#530=PRODUCT_DEFINITION_SHAPE('','SHAPE FOR 564B_ASM.',#568);
#531=SHAPE_REPRESENTATION('',(#537,#546,#564),#560);
#532=NEXT_ASSEMBLY_USAGE_OCCURRENCE('188','Next assembly relationship','40731',
#568,#526,$);
#533=PRODUCT_DEFINITION_SHAPE('Placement #188',
'Placement of 40731 with respect to 564B_ASM',#532);
#541=NEXT_ASSEMBLY_USAGE_OCCURRENCE('189','Next assembly relationship','40731',
#568,#526,$);
#542=PRODUCT_DEFINITION_SHAPE('Placement #189',
'Placement of 40731 with respect to 564B_ASM',#541);
#551=(LENGTH_UNIT()NAMED_UNIT(*)SI_UNIT(.MILLI.,.METRE.));
#555=(NAMED_UNIT(*)PLANE_ANGLE_UNIT()SI_UNIT($,.RADIAN.));
#558=(NAMED_UNIT(*)SI_UNIT($,.STERADIAN.)SOLID_ANGLE_UNIT());
#564=AXIS2_PLACEMENT_3D('',#561,#562,#563);
#568=PRODUCT_DEFINITION('design','',#567,#522);
ENDSEC;
END-ISO-10303-21;
